Loading... Please wait...
  • Image 1

FREE Guitar Lesson: This will change your life!

$0.00
SKU:
GL1
Weight:
0.00 LBS

Product Description

FREE Guitar Lesson: Fingerpicking: This will change your life!

A few years ago, I posted a video on YouTube (Fingerpicking: This will change your life!) that despite its poor video quality has proven to be enormously popular - almost 5 million views so far!  A revised version of the original video - featuring chords C/F/G7-  is posted below, and a new instructional video has just beed added. The reason? Many of my visitors hae questions about playing the D or D7 chords when playing the progression G/C/D7.  Here are both videos plus tabs for the newest video. Hope you find them useful.

 

 

 

Tabs

G Chord:

1----------------------------------------1

1----------0------------0---------------1

1---------------0----------------0------1

1----------0----------------0-----------1

1----------------------------------------1

1-----3------------3--------------------1

                m                 m

                       i                         i

         t      t           t           t  

 

C Chord:

1----------------------------------------1 

1----------1------------1---------------1

1---------------0----------------0------1 

1----------2----------------2-----------1

 1-----3---------------------------------1

 1------------------3--------------------1

                m                 m

                      i                         i

         t      t           t           t  

 

D Chord:

1-----------2-----------2----------------1

1---------------3------------------3-----1

1-----------2-----------------2----------1

1-----0------------0---------------------1

1-----------------------------------------1 

1-----------------------------------------1

                m                    m

                      i                             i

         t      t           t              t  

 

 

Beyond Basic Fingerpicking!

I hope the following video will prove to be just as useful in developing the skills you need to play Chord-Melody Fingerstyle, i.e. playing the melody and fingerpicking pattern at the same time. It took me years to learn how to play this way and think it's finally time for me to share my skill with you.

 

What exactly arethe steps needed to play Chord-Melody Fingerstyle? Here's what recommend:
1. Learn to play the melody first.

2. Next, learn to play the melody w/ double stops.

3. Then fill in w/ fingerpicking patterns (there are several).

4. Finally, embellish with runs, turnarounds, hammer-ons & pull-offs and slides.

 

Here is the guitar featured in the above videos: Teton STS205CENT

 

 

 

 

Find Similar Products by Category

Product Reviews

This product hasn't received any reviews yet. Be the first to review this product!

Write your own product review




Recent Updates

Newsletter



Click the button below to add the FREE Guitar Lesson: This will change your life! to your wish list.